חיפוש מאמרים

11792 מאמרים - מנוע לחיפוש מאמרים - פרסום מאמרים חינם

חפש מאמרים המתחילים באות:    א  ב  ג  ד  ה  ו  ז  ח  ט  י  כ  ל  מ  נ  ס  ע  פ  צ  ק  ר  ש  ת 

    עמוד הבית
»   הוסף מאמר חינם!
»   קישורי מידע
»   הוסף למועדפים
»   הפוך לדף הבית
»   צור קשר
»   פרסום באתר
»   מאמר מעניין בנושא:
כתיבת והפצה של קורות חיים הנדסיים





    קישורי טקסט (לפרטים)




חפש עסקים למכירה בתחום מוזיקה
קישור טקסט ממומן | לפרסום -לחץ כאן
עד 15% הנחה על השכרת רכב בחו"ל, מהחברות הגדולות בעולם, לחצו ל Rentingcar

הזמנת מלונות ביעדים האטרקטיבים ביותר ללא עמלות הזמנה!
מאמרים נוספים: גיטרה טאבים מוסיקה אקורדים

נושא המאמר: קריאת טאבלטורה (ישראלי גיטר)
מאת: Israeli-Guitar.com (ישראלי גיטר)   שמור מאמר למועדפים

קריאת טאבלטורה


אני די בטוח שמישהו כבר חשב על זה. אבל הגיע לידי מסמך טקסט ובו פירוט על קריאה וכתיבה של טאבלטורה . ולכן החלטתי, למען אלו מכם שעדיין מתקשים ,לתרגם אותו ולהעלות אותו כאן.
לכמה מכם אם לא לרובכם מה שכתוב בשרות הבאות מוכר וידוע, שורות אלו יעזרו לאלו מכם שאולי לא בטוחים בעצמם, או לא יודעים

מה טאבים אומרים לנו:
טאב יגיד לנו איזה תו לנגן, איפה ללחוץ, ועל איזה מיתר לנגן.
טאב יגיד לנו, היכן לבצע טכניקות כגון: פול אוף , המר און , בנד, סלייד , הרמוניק, וויברטו.
טאב יתן לנו אינדיקציה מסוימת של הקצב , מהו אורכו של הקטע,
מה שכן טאב לא יגיד לנו את אורכו המדויק של כל צליל מה שמוביל אותי ל...

מה טאבים לא אומרים לנו:
טאבלטורה , בדרך כלל לא תציין את המקצב המדויק של הקטע. או לכל תו.
טאבלטורה לא תציין בפנינו באיזו אצבע ללחוץ, ובאיזו לפרוט.
טאבלטורה בדרך כלל לא תציין איך אנו אמורים להשתמש במפרט , האם לפרוט כלפי מטה או מעלה..
את היכולות הללו עלינו להשיג ע"י נגינת הטאב כאשר הקטע אותו אנו מעונינים לנגן מתנגן ברקע. ובקביעת הקצב , ומשקל הקטע בעצמנו, וכמה שיותר קרוב למקור כמובן.

קריאה וכתיבה של טאבים.

מהו טאב (tab) ?

טאב הוא פשוט דרך קלה יותר להעברת מידע מוסיקלי בקרב גיטריסטים , בסיסטים, ואפילו מתופפים ( טאב שנוצר במיוחד למתופפים) מבלי להסתבך עם כל הפרוצדורה של תווים, בקרים, במולים וכדומה.
הרעיון הבסיסי הוא שישה קווים שמתארים את צוואר הגיטרה ( ארבעה במקרה של בס) לדוגמא:

1----------------------------------------------------------------------------------------------------e
2---------------------------------------------------------------------------------------------------B
3---------------------------------------------------------------------------------------------------G
4---------------------------------------------------------------------------------------------------D
5---------------------------------------------------------------------------------------------------A
6---------------------------------------------------------------------------------------------------E
(במידה והטאבים לא נראים טוב יש לעתיקם לכתבן - Notepad)

1-e המיתר הכי דק (מי גבוה)
6-E המיתר הכי עבה (מי נמוך)

צורת ההסתכלות על עמודת הטאבלטורה היא כאילו אתם מביטים על הגיטרה שלכם. כלומר. כאשר אתם יושבים/עומדים עם הגיטרה, המיתר הכי קרוב אליכם הוא מיתר מספר 6 – E או במילים אחרות , מי נמוך. ואילו הרחוק ביותר הוא 1-e או במילים אחרות מי גבוה .





על גבי הקווים נכתבים מספרים שמצינים בפנינו את מיקום הצלילים בקטע המיועד. והיכן עלינו ללחוץ לדוגמה :

1----------------------------------------------------------------------------------------------------e
2---------------------------------------------------------------------------------------------------B
3---------------------------------------------------------------------------------------------------G
4---------------------------------------------------------------------------------------------------D
5---------------------------------------------------------------------------------------------------A
6------------------------------------------------------------------------------5--4--3--2--1---0-E

משמעות המספרים היא:
0- מיתר פתוח (פריטה על המיתר מבלי ללחוץ הסוף בית).
1- לחיצה על מיתר מספר 6 (הבס) בסריג הראשון (1)
2- לחיצה על מיתר מספר 6 בסריג השני (2)
3- לחיצה על מיתר מספר 6 בסריג השלישי (3)
4- לחיצה על מיתר מספר 6 בסריג הרביעי (4)
5- לחציה על מיתר מספר 6 בסריג החמישי (5)

נסו לנגן את הקטע לפי ההסבר.

דמינו כי אצבעות יד שמאל,( או ימין לשמאליים בינינו) ממוספרות
אצבע-1
אמה-2
קמציה-3
זרת-4
, נסו לנגן את הקטע לפי הנוסחה הבאה –


מיתר פתוח 0 ( פריטה מטה עם המפרט )
סריג מספר 1- אצבע מספר 1 (פריטה מעלה עם המפרט )
סריג מספר 2-אצבע מספר 2 ( פריטה מטה עם המפרט)
סריג מספר 3- אצבע מספר 3 ( פריטה מעלה עם המפרט )
סריג מספר 4- אצבע מספר 4 ( פריטה מטה עם המפרט )
סריג מספר 5- אצבע מספר 4 ( פריטה מעלה עם המפרט )

הקטע אותו ניגנתם בשפה המוסיקלית הוא:
התווים ( משמאל לימין ) :
לה/סול#/סול/פה#/פה/מי/
A/G#/G/F#/F/E
0/1/2/3/4/5


התרגיל הקודם הוא תרגיל בו הצלילים מנוגנים תו אחרי תו.
במידה וברצוננו לקרוא או לכתוב מקבץ צלילים המנוגנים יחדיו, כאמור אקורד, יכתבו המספרים אחד מעל השני לדוגמא :

----0---e
----1---B
----0---G
----2---D
----3---A
----x---E

מקבץ המספרים הזה והצורה בה הוא כתוב מתאר את האקורד דו או C
משמעותי לנגן את כל המספרים כחטיבה אחת באותו הזמן . נסו לנגן את האקורד.
( למי מכן שכבר יודע.... כל הכבוד.)
הערה: X מסמן שאין לפרוט על מיתר זה.


לעיתים תתקלו בצורה שונה של אותה התבנית.נשאר עם C
לדוגמא:


--------------0---------------e
-----------------1-------------B
-------------------0-----------G
---------------------2---------D
-----------------------3-------A
--------------------------x----E

משמעות הצורה הזו היא שעלינו לנגן את האקורד בפריטה של כל צליל וצליל, כלומר, הצליל השני ינוגן מעט לאחר ניגונו של הצליל ראשון, שזה אומר פריטה על המיתר השני מעט אחרי המיתר הראשון.
כיוון הנגינה הינו חשוב. אנו מתחילים עם המיתר השישי ויורדים מטה, כמו גם בדוגמא הראשונה.

באם נתקלתם בצורה הבאה:

------------------------------0--------------------------e
-------------------------1-------1----------------------B
-------------------0-----------------0------------------G
--------------2---------------------------2-------------D
---------3------------------------------------3---------A
-----x---------------------------------------------x----E

משמעותו: נגנו את האקורד ( (Cמלמעלה למטה ומיד מלמטה למעלה כשלמטה הוא המספר 0 שבמיתר ה1-e .

משמעות נוספת היא המרווח בין מספר למספר. המרווח בין המספרים בדוגמא הראשונה קטן ( ראו דוגמא ראשונה) ואילו בדוגמאות השניה והשלישית המרווח גדול יותר. משמעות המרווח הוא בצורה בסיסית ה"קצב" בו מנוגן הקטע . כעת נשאלת השאלה. כמה זמן עלינו לנגן כל צליל .
כפי שכבר נאמר, טאב לא נותן לנו את משך הזמן המדויק שבו מנוגן כל צליל. אבל אל יאוש... בדוגמא שלמעלה המרווחים בין המספרים הם קבועים בצורתם, כך שניתן להניח ( ובצדק במקרה הזה ) כי אורך כל צליל הוא שווה. אך זה לא תמיד נכון. זה מאוד תלוי במי שכתב את הטאב. לכן מומלץ ללמוד טאבים בעזרת הקטע המקורי בזמן שהוא מתנגן.

כחוק כללי, המרווח בין מספר למספר אמור להגיד לנו מהו הזמן בו מתנגן כל תו. המרווח אמור להגיד לנו באם התו קצר או ארוך. כאמור זה מאוד תלוי במי שכתב את הטאב.
לדוגמא , הנה הצלילים הראשונים של ההמנון האמריקאי. אתם אמורים לראות בבהירות כי המרווחים בין המספרים מתאימים כמעט במדויק לקצב היצירה.




1------------------------------------------------0-2--4----------0---------------------------------e
2---------------------------0-------------------------------------------0-------------------0------B
3----------------------------------3-----1------------------------------------1------- -1----------G
4--- ----------------------------------------------------------------------------------2------------D
5---------------------------------------------------------------------------------------------------A
6---------------------------------------------------------------------------------------------------E
כמובן שיהיה יותר קל לנגן טאב של שיר שאתם מכירים מאשר של שיר שאתם נתקלים בו בפעם הראשונה.

את המשך המאמר (ומאמרים נוספים בתחום) ניתן למצוא באתר ישראלי גיטר: www.Israeli-Guitar.com



www.israeli-guitar.com


מאמר זה נוסף לאתר "ארטיקל" מאמרים ע"י Israeli-Guitar.com (ישראלי גיטר) שאישר שהוא הכותב של מאמר זה ושהקישור בסיום המאמר הוא לאתר האינטרנט שבבעלותו, מפרסם מאמר זה אישר בפרסומו מאמר זה הסכמה לתנאי השימוש באתר "ארטיקל", וכמו כן אישר את העובדה ש"ארטיקל" אינם מציגים בתוך גוף המאמר "קרדיט", כפי שמצוי אולי באתרי מאמרים אחרים, מלבד קישור לאתר מפרסם המאמר (בהרשמה אין שדה לרישום קרדיט לכותב). מפרסם מאמר זה אישר שמאמר זה מפורסם אולי גם באתרי מאמרים אחרים בחלקו או בשלמותו, והוא מאשר שמאמר זה נוסף על ידו לאתר "ארטיקל".

צוות "ארטיקל" מצהיר בזאת שאינו לוקח או מפרסם מאמרים ביוזמתו וללא אישור של כותב המאמר בהווה ובעתיד, מאמרים שפורסמו בעבר בתקופת הרצת האתר הראשונית ונמצאו פגומים כתוצאה מטעות ותום לב, הוסרו לחלוטין מכל מאגרי המידע של אתר "ארטיקל", ולצוות "ארטיקל" אישורים בכתב על כך שנושא זה טופל ונסגר.

הערה זו כתובה בלשון זכר לצורך בהירות בקריאות, אך מתייחסת לנשים וגברים כאחד, אם מצאת טעות או שימוש לרעה במאמר זה למרות הכתוב לעי"ל אנא צור קשר עם מערכת "ארטיקל" בפקס 03-6203887.

בכדי להגיע לאתר מאמרים ארטיקל דרך מנועי החיפוש, רישמו : מאמרים על , מאמרים בנושא, מאמר על, מאמר בנושא, מאמרים אקדמיים, ואת התחום בו אתם זקוקים למידע.

 

 

 






 

 להשכיר רכב

 הזמנת מלון בחו"ל

 הזמנת מלון בישראל

 אתר איי יוון

 מדריך איטליה

 מלונות בניו יורק

 מדריך לאס וגאס

 המלצות על נופש

 המלצות על פריז

נדל"ן ביוון


 
 
 

 

איי יוון | אתונה |  עסקים למכירה | גרפולוגיה משפטית | כרתים | איטליה | הזמנת מלון | מטבחי יוקרה | חבל זגוריה | זמן טיסה |  הזמנת טיסה | השכרת רכב בחו"ל

 

 

 

 

 

ארטיקל מאמרים 2015 - 2006  clickgoseo@gmail.com מנוע חיפוש מאמרים ארטיקל, כבר בן 8 שנים!